Главная · Поиск книг · Поступления книг · Top 40 · Форумы · Ссылки · Читатели

Настройка текста
Перенос строк


    Реклама    

liveinternet.ru: показано число просмотров за 24 часа, посетителей за 24 часа и за сегодня
Rambler's Top100
Тексты песен - Различные авторы Весь текст 101.2 Kb

Агата Кристи

Предыдущая страница Следующая страница
1 2 3 4 5  6 7 8 9

Соло 1
  Em                  Am                  H                   G
1 -------------------|-------------------|-------------------|-------------------|
2 -------------------|-------------------|-------------------|-------------------|
3 -------------------|---2---------------|-------------------|-------------------|
4 --5--4--2--4--5----|-------5---2-------|--4--2-----2--4----|--5--4-------------|
5 -------------------|-------------------|--------6----------|--------5----------|
6 -------------------|-------------------|-------------------|-------------------|

  Em                  A                   H                   Am
1 -------------------|-------------------|-------------------|-------------------|
2 -------------------|-------------------|-----------4-------|--5----------------|
3 -------------------|--4--2-------------|--------4----------|-------------------|
4 -----2--4--5-------|--------2----------|--5--4-------------|-------------------|
5 --2----------------|-------------------|-------------------|-------------------|
6 -------------------|-------------------|-------------------|-------------------|

Соло 2 играется так же, как соло 1, только на октаву выше (аккорды те же самые)
  Em                  Am                  H                   G
1 -------------------|--5----------------|-------------------|-------------------|
2 --8--7--5--7--8----|-----8--5----------|--7--5-----5--7----|--8--7-------------|
3 -------------------|-------------------|--------8----------|--------7----------|
4 -------------------|-------------------|-------------------|-------------------|
5 -------------------|-------------------|-------------------|-------------------|
6 -------------------|-------------------|-------------------|-------------------|

  Em                  A                   H                   Am
1 -------------------|-------------------|--------7--11------|--12---------------|
2 -----5--7--8-------|--7--5-------------|--8--7-------------|-------------------|
3 --4----------------|--------5----------|-------------------|-------------------|
4 -------------------|-------------------|-------------------|-------------------|
5 -------------------|-------------------|-------------------|-------------------|
6 -------------------|-------------------|-------------------|-------------------|


B - это си-бемоль, а си обозначается H




Другой вариант:    Сказочная Тайга [tabs]
      Dm        Gm      A         F       Dm        G     A     Dm
|-----------5-8-6-------5-------6-5-------------5-8-7-----9-----10---------
|-----------------------------5--------------------------------------------
|-----7---7-----------------6-------------7---7----------------------------
|--------------------------------------------------------------------------
|--------------------------------------------------------------------------
|--------------------------------------------------------------------------


  Такой еще ход.         Соло.
     A7                   Em           F/E         B/E          Em7
|----5-5---------------|--------------------------------------------------|
|--------8-8-6-6-5-5---|--8--7-----7-8-10-8--------7----------7-8-7-------|
|----------------------|--------9------------9--------9--8--9--------7----|
|----------------------|--------------------------------------------------|
|----------------------|--------------------------------------------------|
|----------------------|--------------------------------------------------|


                                           Втор
  Em            A          B7
|----0-----------------0--------------11-|--12\----|
|-0-------------12-10--------------12----|---------|
|-------11--12-------------12--11--------|---------|
|----------------------------------------|---------|
|----------------------------------------|---------|
|----------------------------------------|---------|




        Трансильвания

    Em          G    Em             G
     Открытая дверь   на свежей земле
      Em
     Под земляй кипит работа -
      A          Am
     Бесы варят позолоту.
      Em
     Там, в пещере, Алладин -
       A         Am
     Всемогущ и нелюдим.
      Am
     Там, внизу, твоя могила,
      C            H      Em
     До свиданья, милый, милый,
      Am  H
     Милый.
        Em A H
     Бывай!

     Отличная ночь для смерти и зла.
     На тебя роняет слязы
     Небо, а на небе - звязды
     Улыбаются во сне
     Человеку на Луне.
     Глубоко тебя зарыли,
     До свиданья, милый, милый,
     Милый.
     Бывай!

   Fm#          A   Fm#            A
     Открытая дверь  на свежей земле
      F#
     Мы вколачиваем гвозди,
       H             Hm
     Чтоб в гробу лежали кости.
       Fm#
     Чтоб из-под земли не лез
      H          Hm
     На тебе поставлю крест.
       Fm
     Трижды плюну на могилу,
      D            C#     Fm#
     До свиданья, милый, милый,
      Hm   C#
     Милый.
        Fm# H C#
     Бывай!


        Насилие

      Am
     Тихо в ночи,
                    Hm
     Слышен только тоненький свист,
      D
     Радостный хруст,
      E
     Жалобный плач.
           Am
     Это плети свистят,
                 Hm
     Это чьи-то кости хрустят,
        D
     В мяртвых руках,
         E
     На чярных зубах.

               Am         F       Dm         E
         Это плачет Белоснежка - вот оно, пришло,
           Am              F     Dm          E
         Вся, что только снилось очень глубоко.
           Hm         G       Em         F#
         Плачет Белоснежка, стонет Белоснежка,
          Hm         G          Em       F#     Hm
         И, сама не замечая, странно улыбается себе.
                     G          Em       F#
         Слязы горькие глотая, выпивая кровь.
               F# Hm C
         Насилие!

     Синие губы
     Сосут ея кровь.
     Она холодна,
     Как оранжевый сок.
     Чярные цепи
     Давят на грудь.
     Железные рты
     Пьют ея боль.


        Ты и я

     Em         Am
      Давайте все сойдем с ума
      Сегодня - ты, а завтра - я.
                F
      Давайте все сойдем с ума,
      Вот это будет ерунда!
                D
      Мы будем дико хохотать,
      Мы будем крыльями махать,
     Em      Am           F
      И покорится вся земля
                 D
      Таким как ты,
     Em         Am
      Таким как я.

      Мы сядем в белый пароход
      Сегодня - ты, а завтра - я.
      Мы сядем в белый пароход
      И поплывям наоборот.
      И в неизведанной земле
      Увидим Ницше на коне,
      И он обнимет нас, любя,
      Простой как ты,
      Простой как я.

      Сегодня - ты,
      Сегодня - ты,
      А завтра я.


        Гетеросексуалист

     Cn Fm D# G Cm Fm G

    Cm          Fm        D# G
     Как будто горькое вино,
    Cm          Fm       G
     Как будто вычурная поза,
    Cm             Fm
     Под шум хмельных идей
    B           Cm
     Пришла мечта о ней,
    Cm          G#          G
     Как будто роза под наркозом.

        Cm           B
         Да, я люблю. Да, я люблю.
        Fm                 Cm
         Об этом песни я пою
        Cm          B         Fm
         И петь не надо о другом:
                               Cm
         Мы о другом споям потом.
                B           Fm
         А я люблю, а я люблю
                           Cm
         И удержатся не могу.
                B           Fm
         Я оптимист, я оптимист,
                        Cm
         Я гетеросексуалист.

     Меня уводит в темноту
     Счастливая меланхолия
     И пусть жестока плеть
     Я не устану петь
     Ея потряпанное имя.


        Опиум для никого

         Cm
     Я крашу губы гуталином,
       B       G
     Я обожаю чярный цвет
        B
     И мой герой, он соткан весь
         Fm         G
     Из тонких запахов конфет.
        Cm
     Напудрив ноздри кокаином,
        B          G
     Я выхожу на променад,
         B
     И звязды светят мне красиво,
        Fm        G
     И симпатичен ад.

        Cm
         Давай вечером с тобой встретимся
        B               G
         Будем опиум курить-рить-рить.
        Cm
         Давай вечером с тобой встретимся
        B                 G
         По-китайски говорить.
        Cm
         Не прячь музыку - она опиум
           B          G
         Для никого, только для нас.
        Cm
         Давай вечером умрем весело,
        B                G
         Поиграем в декаданс.

     Убей меня, убей себя,
     Ты не изменишь ничего:
     У этой сказки нет конца
     Ты не изменишь ничего.
     Накрась ресницы губной помадой,
     А губы лаком для волос
     Ты будешь - мяртвая принцесса,
     А я - твой вярный пяс.

    Опиум [tabs]

  Модный такой заход.                                 Промеж куплету и
         Cm                                           припеву.
|--------8------------------------------------------|-----3---3---3--------
|----7-8--------------------------------------------|-----3---3---3--------
|----------------5-----5---------5------5----.....--|----------------------
|---------------------------------------------------|----------------------
|---------------------------------------------------|----------------------
|---------------------------------------------------|----------------------

  Время от времени появляется такое вот нечто:

|----13-12-11---|
|---------------|
|---------------|
|---------------|
|---------------|
|---------------|

  И еще вот:

|---------------|
|----6-5-4------|
|---------------|
|---------------|
|---------------|
|---------------|

  А теперь...

  Соло. Соблюдены длительности
 G       Cm
   4 и   1 и 2 и 3 и 4   1 и 2 и 3 и 4 и    1 и 2 и 3 и 4 и
|------|---------------|-----------------|------------------|--------------
|--6-5-|-4-------------|(4)--П-----------|-78----78------78-|--------------
|------|---------------|-----а-----------|------------------|--------------
|------|---------------|-----у-----------|------------------|--------------
|------|---------------|-----з-----------|------------------|--------------
|------|---------------|-----а-----------|------------------|--------------


                     Gm/Bb                                Bb
   1 и 2 и 3 и 4 и   1 и 2 и 3 и 4 и   1 и 2 и 3 и 4 и    1 и 2  и 3 и 4 и
|------------------|-10--------------|-----------------|-------1011--------
|-(8)----------6-8-|------78------78-|(8)--------------|-89-------------89-
|------------------|-----------------|-----------------|-------------------
|------------------|-----------------|-----------------|-------------------
|------------------|-----------------|-----------------|-------------------
|------------------|-----------------|-----------------|-------------------


                     Fm7               G7                Cm
  1 и 2 и 3 и 4 и    1 u 2 u 3 u 4 u   1 u 2 u 3 u 4 u   1 u 2 u 3 u 4 u
|(4)----------3-4-|1011--------------|-----------------|------------------|
|-----------------|---------89-------|78---------------|-8-/gliss/---17---|
|-----------------|------------------|-----------------|-8-/gliss/-----21-|
|-----------------|------------------|-----------------|------------------|
|-----------------|------------------|-----------------|------------------|
|-----------------|------------------|-----------------|------------------|


                    Gm/Bb                               Bb
  1 u 2 u 3 u 4 u   1 u 2 u 3 u 4 u    1 u 2 u 3 u 4 u   1 u 2 u 3 u 4 u
|-------------8---|810------10----10-|(10)---------6---|-8-------8----68--|
|(17)-------------|------------------|-----------------|------------------|
Предыдущая страница Следующая страница
1 2 3 4 5  6 7 8 9
Ваша оценка:
Комментарий:
  Подпись:
(Чтобы комментарии всегда подписывались Вашим именем, можете зарегистрироваться в Клубе читателей)
  Сайт:
 

Реклама